  0
SECTION
  2
HEADER
  9
$ACADVER
  1
AC1009
  9
$INSBASE
 10
0.0
 20
0.0
 30
0.0
  9
$EXTMIN
 10
-2.384494139604723
 20
0.4717930703832753
 30
0.0
  9
$EXTMAX
 10
7.8517266603952791
 20
24.183910170570741
 30
0.0
  9
$LIMMIN
 10
0.0
 20
0.0
  9
$LIMMAX
 10
12.0
 20
9.0
  9
$ORTHOMODE
 70
     0
  9
$REGENMODE
 70
     1
  9
$FILLMODE
 70
     1
  9
$QTEXTMODE
 70
     0
  9
$MIRRTEXT
 70
     1
  9
$DRAGMODE
 70
     2
  9
$LTSCALE
 40
0.6
  9
$OSMODE
 70
   111
  9
$ATTMODE
 70
     1
  9
$TEXTSIZE
 40
0.2
  9
$TRACEWID
 40
0.05
  9
$TEXTSTYLE
  7
ARIAL
  9
$CLAYER
  8
ADAPTER
  9
$CELTYPE
  6
BYLAYER
  9
$CECOLOR
 62
   256
  9
$DIMSCALE
 40
1.0
  9
$DIMASZ
 40
0.125
  9
$DIMEXO
 40
0.0625
  9
$DIMDLI
 40
0.25
  9
$DIMRND
 40
0.0
  9
$DIMDLE
 40
0.0
  9
$DIMEXE
 40
0.125
  9
$DIMTP
 40
0.0
  9
$DIMTM
 40
0.0
  9
$DIMTXT
 40
0.125
  9
$DIMCEN
 40
0.09
  9
$DIMTSZ
 40
0.0
  9
$DIMTOL
 70
     0
  9
$DIMLIM
 70
     0
  9
$DIMTIH
 70
     1
  9
$DIMTOH
 70
     1
  9
$DIMSE1
 70
     0
  9
$DIMSE2
 70
     0
  9
$DIMTAD
 70
     0
  9
$DIMZIN
 70
     4
  9
$DIMBLK
  1

  9
$DIMASO
 70
     1
  9
$DIMSHO
 70
     1
  9
$DIMPOST
  1

  9
$DIMAPOST
  1

  9
$DIMALT
 70
     0
  9
$DIMALTD
 70
     2
  9
$DIMALTF
 40
25.399999999999999
  9
$DIMLFAC
 40
1.0
  9
$DIMTOFL
 70
     0
  9
$DIMTVP
 40
0.0
  9
$DIMTIX
 70
     0
  9
$DIMSOXD
 70
     0
  9
$DIMSAH
 70
     0
  9
$DIMBLK1
  1

  9
$DIMBLK2
  1

  9
$DIMSTYLE
  2
FRAC
  9
$DIMCLRD
 70
   256
  9
$DIMCLRE
 70
   256
  9
$DIMCLRT
 70
   256
  9
$DIMTFAC
 40
1.0
  9
$DIMGAP
 40
0.09
  9
$LUNITS
 70
     2
  9
$LUPREC
 70
     4
  9
$SKETCHINC
 40
0.1
  9
$FILLETRAD
 40
0.5
  9
$AUNITS
 70
     0
  9
$AUPREC
 70
     0
  9
$MENU
  1
.
  9
$ELEVATION
 40
0.0
  9
$PELEVATION
 40
0.0
  9
$THICKNESS
 40
0.0
  9
$LIMCHECK
 70
     0
  9
$BLIPMODE
 70
     0
  9
$CHAMFERA
 40
0.0
  9
$CHAMFERB
 40
0.0
  9
$SKPOLY
 70
     0
  9
$TDCREATE
 40
2452392.3517971062
  9
$TDUPDATE
 40
2452554.46199456
  9
$TDINDWG
 40
0.2387458333
  9
$TDUSRTIMER
 40
0.238743287
  9
$USRTIMER
 70
     1
  9
$ANGBASE
 50
0.0
  9
$ANGDIR
 70
     0
  9
$PDMODE
 70
     3
  9
$PDSIZE
 40
0.0
  9
$PLINEWID
 40
0.0
  9
$COORDS
 70
     2
  9
$SPLFRAME
 70
     0
  9
$SPLINETYPE
 70
     6
  9
$SPLINESEGS
 70
     8
  9
$ATTDIA
 70
     0
  9
$ATTREQ
 70
     1
  9
$HANDLING
 70
  4097
  9
$HANDSEED
  5
E64
  9
$SURFTAB1
 70
     6
  9
$SURFTAB2
 70
     6
  9
$SURFTYPE
 70
     6
  9
$SURFU
 70
     6
  9
$SURFV
 70
     6
  9
$UCSNAME
  2

  9
$UCSORG
 10
0.0
 20
0.0
 30
0.0
  9
$UCSXDIR
 10
1.0
 20
0.0
 30
0.0
  9
$UCSYDIR
 10
0.0
 20
1.0
 30
0.0
  9
$PUCSNAME
  2

  9
$PUCSORG
 10
0.0
 20
0.0
 30
0.0
  9
$PUCSXDIR
 10
1.0
 20
0.0
 30
0.0
  9
$PUCSYDIR
 10
0.0
 20
1.0
 30
0.0
  9
$USERI1
 70
     0
  9
$USERI2
 70
     0
  9
$USERI3
 70
     0
  9
$USERI4
 70
     0
  9
$USERI5
 70
     0
  9
$USERR1
 40
1.0
  9
$USERR2
 40
25.399999999999999
  9
$USERR3
 40
0.0
  9
$USERR4
 40
0.0
  9
$USERR5
 40
0.0
  9
$WORLDVIEW
 70
     1
  9
$SHADEDGE
 70
     3
  9
$SHADEDIF
 70
    70
  9
$TILEMODE
 70
     1
  9
$MAXACTVP
 70
    48
  9
$PLIMCHECK
 70
     0
  9
$PEXTMIN
 10
1.0000000000000000E+020
 20
1.0000000000000000E+020
 30
1.0000000000000000E+020
  9
$PEXTMAX
 10
-1.0000000000000000E+020
 20
-1.0000000000000000E+020
 30
-1.0000000000000000E+020
  9
$PLIMMIN
 10
0.0
 20
0.0
  9
$PLIMMAX
 10
12.0
 20
9.0
  9
$UNITMODE
 70
     0
  9
$VISRETAIN
 70
     1
  9
$PLINEGEN
 70
     0
  9
$PSLTSCALE
 70
     1
  0
ENDSEC
  0
SECTION
  2
TABLES
  0
TABLE
  2
VPORT
 70
     2
  0
VPORT
  2
*ACTIVE
 70
     0
 10
0.0
 20
0.0
 11
1.0
 21
1.0
 12
6.3979285666238566
 22
12.32789196225894
 13
0.0
 23
0.0
 14
0.5
 24
0.5
 15
0.5
 25
0.5
 16
0.0
 26
0.0
 36
1.0
 17
0.0
 27
0.0
 37
0.0
 40
24.360769305630619
 41
1.3665594855305461
 42
50.0
 43
0.0
 44
0.0
 50
0.0
 51
0.0
 71
     0
 72
   100
 73
     1
 74
     2
 75
     0
 76
     0
 77
     0
 78
     0
  0
ENDTAB
  0
TABLE
  2
LTYPE
 70
     3
  0
LTYPE
  2
CONTINUOUS
 70
     0
  3
Solid line
 72
    65
 73
     0
 40
0.0
  0
LTYPE
  2
CENTER
 70
     0
  3
Center ____ _ ____ _ ____ _ ____ _ ____ _ ____
 72
    65
 73
     4
 40
2.0
 49
1.25
 49
-0.25
 49
0.25
 49
-0.25
  0
LTYPE
  2
HIDDEN
 70
     0
  3
Hidden __ __ __ __ __ __ __ __ __ __ __ __ __ _
 72
    65
 73
     2
 40
0.375
 49
0.25
 49
-0.125
  0
ENDTAB
  0
TABLE
  2
LAYER
 70
     6
  0
LAYER
  2
0
 70
     0
 62
     7
  6
CONTINUOUS
  0
LAYER
  2
CENTERLINE
 70
     0
 62
     1
  6
CENTER
  0
LAYER
  2
2-7
 70
     0
 62
     2
  6
CONTINUOUS
  0
LAYER
  2
ADAPTER
 70
     0
 62
     3
  6
CONTINUOUS
  0
LAYER
  2
DRIVE_TANG
 70
     0
 62
     4
  6
CONTINUOUS
  0
LAYER
  2
DRIVE_INPUT
 70
     0
 62
     7
  6
CONTINUOUS
  0
ENDTAB
  0
TABLE
  2
STYLE
 70
     2
  0
STYLE
  2
STANDARD
 70
     0
 40
0.0
 41
1.0
 50
0.0
 71
     0
 42
0.2
  3
txt
  4

  0
STYLE
  2
ARIAL
 70
     0
 40
0.0
 41
1.0
 50
0.0
 71
     0
 42
0.2
  3
txt
  4

  0
ENDTAB
  0
TABLE
  2
VIEW
 70
     0
  0
ENDTAB
  0
TABLE
  2
UCS
 70
     0
  0
ENDTAB
  0
TABLE
  2
APPID
 70
     1
  0
APPID
  2
ACAD
 70
     0
  0
ENDTAB
  0
TABLE
  2
DIMSTYLE
 70
     1
  0
DIMSTYLE
  2
FRAC
 70
     0
  3

  4

  5

  6

  7

 40
1.0
 41
0.125
 42
0.0625
 43
0.25
 44
0.125
 45
0.0
 46
0.0
 47
0.0
 48
0.0
140
0.125
141
0.09
142
0.0
143
25.399999999999999
144
1.0
145
0.0
146
1.0
147
0.09
 71
     0
 72
     0
 73
     1
 74
     1
 75
     0
 76
     0
 77
     0
 78
     4
170
     0
171
     2
172
     0
173
     0
174
     0
175
     0
176
   256
177
   256
178
   256
  0
ENDTAB
  0
ENDSEC
  0
SECTION
  2
BLOCKS
  0
BLOCK
  8
0
  2
$MODEL_SPACE
 70
     0
 10
0.0
 20
0.0
 30
0.0
  3
$MODEL_SPACE
  1

  0
ENDBLK
  5
21
  8
0
  0
BLOCK
 67
     1
  8
0
  2
$PAPER_SPACE
 70
     0
 10
0.0
 20
0.0
 30
0.0
  3
$PAPER_SPACE
  1

  0
ENDBLK
  5
1D
 67
     1
  8
0
  0
ENDSEC
  0
SECTION
  2
ENTITIES
  0
LINE
  5
D3
  8
2-7
 10
3.562356444395276
 20
2.4796671503832748
 30
0.0
 11
7.4954274363952749
 21
2.4796671503832761
 31
0.0
  0
LINE
  5
3BA
  8
2-7
 10
5.0970157400517371
 20
2.0816075192595398
 30
0.0
 11
5.9607681407388151
 21
2.0816075192595411
 31
0.0
  0
LINE
  5
3BB
  8
2-7
 10
5.97145430533274
 20
2.460966362343906
 30
0.0
 11
5.0863295754578122
 21
2.460966362343906
 31
0.0
  0
ARC
  5
3BC
  8
2-7
 10
5.5288919403952761
 20
2.109436072889554
 30
0.0
 40
0.3484134914477874
 50
184.5812200852769
 51
355.41877991472307
  0
LINE
  5
3BD
  8
2-7
 10
5.9607681407388151
 20
2.0816075192595411
 30
0.0
 11
5.9607681407388151
 21
2.460966362343906
 31
0.0
  0
LINE
  5
3BE
  8
2-7
 10
5.97145430533274
 20
2.460966362343906
 30
0.0
 11
5.97145430533274
 21
2.4796671503832761
 31
0.0
  0
LINE
  5
3BF
  8
2-7
 10
5.744830040567046
 20
2.0816075192595411
 30
0.0
 11
5.744830040567046
 21
2.460966362343906
 31
0.0
  0
LINE
  5
3C0
  8
2-7
 10
5.312953840223507
 20
2.0816075192595411
 30
0.0
 11
5.312953840223507
 21
2.460966362343906
 31
0.0
  0
LINE
  5
3C1
  8
2-7
 10
5.0970157400517371
 20
2.0816075192595398
 30
0.0
 11
5.0970157400517371
 21
2.460966362343906
 31
0.0
  0
LINE
  5
3C2
  8
2-7
 10
5.0863295754578122
 20
2.460966362343906
 30
0.0
 11
5.0863295754578122
 21
2.4796671503832761
 31
0.0
  0
LINE
  5
3C8
  8
2-7
 10
-2.384494139604723
 20
7.4009271503832741
 30
0.0
 11
7.8517266603952791
 21
7.400927150383275
 31
0.0
  0
LINE
  5
564
  8
DRIVE_INPUT
  6
HIDDEN
 10
2.1824351403952811
 20
7.8733681103832751
 30
0.0
 11
2.5367658603952821
 21
7.8733681103832751
 31
0.0
  0
LINE
  5
566
  8
DRIVE_INPUT
  6
HIDDEN
 10
3.2847973803952821
 20
7.8733681103832751
 30
0.0
 11
3.2847973803952821
 21
7.4009271503832768
 31
0.0
  0
LINE
  5
567
  8
DRIVE_INPUT
  6
HIDDEN
 10
2.1824351403952811
 20
7.8733681103832751
 30
0.0
 11
2.1824351403952811
 21
7.4009271503832759
 31
0.0
  0
LINE
  5
569
  8
DRIVE_INPUT
  6
HIDDEN
 10
2.930466660395282
 20
7.8733681103832751
 30
0.0
 11
2.930466660395282
 21
7.4796673103832747
 31
0.0
  0
LINE
  5
56A
  8
DRIVE_INPUT
  6
HIDDEN
 10
2.930466660395282
 20
7.4796673103832747
 30
0.0
 11
2.5367658603952821
 21
7.4796673103832747
 31
0.0
  0
LINE
  5
56B
  8
DRIVE_INPUT
  6
HIDDEN
 10
2.5367658603952821
 20
7.4796673103832747
 30
0.0
 11
2.5367658603952821
 21
7.8733681103832751
 31
0.0
  0
LINE
  5
56C
  8
DRIVE_INPUT
  6
HIDDEN
 10
2.930466660395282
 20
7.8733681103832751
 30
0.0
 11
3.2847973803952821
 21
7.8733681103832751
 31
0.0
  0
LINE
  5
6EF
  8
2-7
 10
7.8517266603952773
 20
3.660769550383276
 30
0.0
 11
7.8517266603952791
 21
7.4009271503832768
 31
0.0
  0
LINE
  5
6F1
  8
2-7
 10
-2.3844941396047208
 20
3.6607695503832751
 30
0.0
 11
7.8517266603952773
 21
3.6607695503832751
 31
0.0
  0
LINE
  5
6F2
  8
2-7
 10
7.495427436395274
 20
3.660769550383276
 30
0.0
 11
7.4954274363952749
 21
2.4796671503832761
 31
0.0
  0
LINE
  5
6F4
  8
2-7
  6
HIDDEN
 10
3.5623564443952769
 20
3.6607695503832751
 30
0.0
 11
3.562356444395276
 21
2.4796671503832748
 31
0.0
  0
CIRCLE
  5
851
  8
2-7
  6
HIDDEN
 10
2.7336162603952801
 20
23.12091801057073
 30
0.0
 40
0.7066929360000001
  0
CIRCLE
  5
852
  8
2-7
  6
HIDDEN
 10
2.7336162603952801
 20
20.601232890570731
 30
0.0
 40
0.7066929360000001
  0
POLYLINE
  5
853
  8
2-7
  6
HIDDEN
 66
     1
 10
0.0
 20
0.0
 30
0.0
 70
     1
  0
VERTEX
  5
E41
  8
2-7
  6
HIDDEN
 10
2.3596004996078781
 20
22.0770135507425
 30
0.0
  0
VERTEX
  5
E42
  8
2-7
  6
HIDDEN
 10
2.7336162603952792
 20
22.292951650914269
 30
0.0
  0
VERTEX
  5
E43
  8
2-7
  6
HIDDEN
 10
3.1076320211826811
 20
22.0770135507425
 30
0.0
  0
VERTEX
  5
E44
  8
2-7
  6
HIDDEN
 10
3.1076320211826811
 20
21.645137350398961
 30
0.0
  0
VERTEX
  5
E45
  8
2-7
  6
HIDDEN
 10
2.7336162603952792
 20
21.4291992502272
 30
0.0
  0
VERTEX
  5
E46
  8
2-7
  6
HIDDEN
 10
2.3596004996078781
 20
21.645137350398961
 30
0.0
  0
SEQEND
  5
E47
  8
2-7
  6
HIDDEN
  0
CIRCLE
  5
854
  8
2-7
  6
HIDDEN
 10
2.7336162603952801
 20
21.861075450570731
 30
0.0
 40
0.3473003493025872
  0
CIRCLE
  5
855
  8
2-7
  6
HIDDEN
 10
2.7336162603952801
 20
21.861075450570731
 30
0.0
 40
1.966535495999999
  0
CIRCLE
  5
861
  8
CENTERLINE
 10
2.7336162603952801
 20
19.065799770570742
 30
0.0
 40
1.5354331199999991
  0
CIRCLE
  5
862
  8
CENTERLINE
 10
2.7336162603952801
 20
19.065799770570742
 30
0.0
 40
4.0551182399999997
  0
ARC
  5
864
  8
2-7
 10
2.7336162603952801
 20
19.065799770570742
 30
0.0
 40
5.1181103999999991
 50
72.954671339399383
 51
107.0453286606006
  0
LINE
  5
868
  8
2-7
 10
1.233353880403818
 20
23.9590877099598
 30
0.0
 11
-2.1596716789937891
 21
20.566062150562189
 31
0.0
  0
LINE
  5
87C
  8
2-7
 10
2.02692332439528
 20
0.4717930703832753
 30
0.0
 11
3.4403091963952801
 21
0.4717930703832753
 31
0.0
  0
LINE
  5
87D
  8
2-7
 10
2.02692332439528
 20
2.4796671503832748
 30
0.0
 11
2.02692332439528
 21
0.4717930703832753
 31
0.0
  0
LINE
  5
87E
  8
2-7
 10
3.440309196395281
 20
2.4796671503832748
 30
0.0
 11
3.4403091963952801
 21
0.4717930703832753
 31
0.0
  0
CIRCLE
  5
AA9
  8
2-7
  6
HIDDEN
 10
-0.0616594196047171
 20
19.065799770570742
 30
0.0
 40
1.966535495999999
  0
CIRCLE
  5
AAA
  8
2-7
  6
HIDDEN
 10
1.1981831403952821
 20
19.065799770570742
 30
0.0
 40
0.7066929360000001
  0
POLYLINE
  5
AAB
  8
2-7
  6
HIDDEN
 66
     1
 10
0.0
 20
0.0
 30
0.0
 70
     1
  0
VERTEX
  5
E48
  8
2-7
  6
HIDDEN
 10
-0.2775975197764875
 20
18.69178400978333
 30
0.0
  0
VERTEX
  5
E49
  8
2-7
  6
HIDDEN
 10
-0.493535619948257
 20
19.065799770570731
 30
0.0
  0
VERTEX
  5
E4A
  8
2-7
  6
HIDDEN
 10
-0.2775975197764875
 20
19.439815531358128
 30
0.0
  0
VERTEX
  5
E4B
  8
2-7
  6
HIDDEN
 10
0.1542786805670511
 20
19.439815531358128
 30
0.0
  0
VERTEX
  5
E4C
  8
2-7
  6
HIDDEN
 10
0.3702167807388204
 20
19.065799770570731
 30
0.0
  0
VERTEX
  5
E4D
  8
2-7
  6
HIDDEN
 10
0.1542786805670511
 20
18.69178400978333
 30
0.0
  0
SEQEND
  5
E4E
  8
2-7
  6
HIDDEN
  0
CIRCLE
  5
AAC
  8
2-7
  6
HIDDEN
 10
-0.0616594196047171
 20
19.065799770570742
 30
0.0
 40
0.3473003493025872
  0
CIRCLE
  5
AAD
  8
2-7
  6
HIDDEN
 10
-1.3215019796047169
 20
19.065799770570742
 30
0.0
 40
0.7066929360000001
  0
CIRCLE
  5
AAE
  8
2-7
  6
HIDDEN
 10
2.7336162603952801
 20
16.270524090570738
 30
0.0
 40
1.966535495999999
  0
CIRCLE
  5
AAF
  8
2-7
  6
HIDDEN
 10
2.7336162603952801
 20
17.530366650570741
 30
0.0
 40
0.7066929360000001
  0
POLYLINE
  5
AB0
  8
2-7
  6
HIDDEN
 66
     1
 10
0.0
 20
0.0
 30
0.0
 70
     1
  0
VERTEX
  5
E4F
  8
2-7
  6
HIDDEN
 10
3.1076320211826798
 20
16.054585990398969
 30
0.0
  0
VERTEX
  5
E50
  8
2-7
  6
HIDDEN
 10
2.7336162603952801
 20
15.8386478902272
 30
0.0
  0
VERTEX
  5
E51
  8
2-7
  6
HIDDEN
 10
2.3596004996078781
 20
16.054585990398969
 30
0.0
  0
VERTEX
  5
E52
  8
2-7
  6
HIDDEN
 10
2.3596004996078781
 20
16.486462190742511
 30
0.0
  0
VERTEX
  5
E53
  8
2-7
  6
HIDDEN
 10
2.7336162603952801
 20
16.70240029091428
 30
0.0
  0
VERTEX
  5
E54
  8
2-7
  6
HIDDEN
 10
3.1076320211826798
 20
16.486462190742511
 30
0.0
  0
SEQEND
  5
E55
  8
2-7
  6
HIDDEN
  0
CIRCLE
  5
AB1
  8
2-7
  6
HIDDEN
 10
2.7336162603952801
 20
16.270524090570738
 30
0.0
 40
0.3473003493025872
  0
CIRCLE
  5
AB2
  8
2-7
  6
HIDDEN
 10
2.7336162603952792
 20
15.010681530570739
 30
0.0
 40
0.7066929360000001
  0
CIRCLE
  5
AB3
  8
2-7
  6
HIDDEN
 10
5.5288919403952761
 20
19.065799770570742
 30
0.0
 40
1.966535495999999
  0
CIRCLE
  5
AB4
  8
2-7
  6
HIDDEN
 10
4.269049380395276
 20
19.065799770570742
 30
0.0
 40
0.7066929360000001
  0
POLYLINE
  5
AB5
  8
2-7
  6
HIDDEN
 66
     1
 10
0.0
 20
0.0
 30
0.0
 70
     1
  0
VERTEX
  5
E56
  8
2-7
  6
HIDDEN
 10
5.744830040567046
 20
19.439815531358128
 30
0.0
  0
VERTEX
  5
E57
  8
2-7
  6
HIDDEN
 10
5.960768140738816
 20
19.065799770570742
 30
0.0
  0
VERTEX
  5
E58
  8
2-7
  6
HIDDEN
 10
5.744830040567046
 20
18.691784009783341
 30
0.0
  0
VERTEX
  5
E59
  8
2-7
  6
HIDDEN
 10
5.312953840223507
 20
18.691784009783341
 30
0.0
  0
VERTEX
  5
E5A
  8
2-7
  6
HIDDEN
 10
5.097015740051738
 20
19.065799770570742
 30
0.0
  0
VERTEX
  5
E5B
  8
2-7
  6
HIDDEN
 10
5.312953840223507
 20
19.439815531358128
 30
0.0
  0
SEQEND
  5
E5C
  8
2-7
  6
HIDDEN
  0
CIRCLE
  5
AB6
  8
2-7
  6
HIDDEN
 10
5.5288919403952761
 20
19.065799770570742
 30
0.0
 40
0.3473003493025872
  0
CIRCLE
  5
AB7
  8
2-7
  6
HIDDEN
 10
6.7887345003952762
 20
19.065799770570731
 30
0.0
 40
0.7066929360000001
  0
LINE
  5
AB8
  8
2-7
 10
4.2338786403867417
 20
23.9590877099598
 30
0.0
 11
7.6269041997843487
 21
20.566062150562189
 31
0.0
  0
ARC
  5
AB9
  8
2-7
 10
2.7336162603952801
 20
19.065799770570742
 30
0.0
 40
5.1181103999999991
 50
162.9546713393994
 51
197.04532866060049
  0
ARC
  5
ABA
  8
2-7
 10
2.7336162603952792
 20
19.065799770570742
 30
0.0
 40
5.1181103999999991
 50
252.95467133939931
 51
287.04532866060049
  0
ARC
  5
ABB
  8
2-7
 10
2.7336162603952778
 20
19.065799770570742
 30
0.0
 40
5.1181103999999991
 50
342.95467133939928
 51
17.045328660600589
  0
LINE
  5
ABE
  8
2-7
 10
1.233353880403818
 20
14.172511831181669
 30
0.0
 11
-2.1596716789937891
 21
17.565537390579269
 31
0.0
  0
LINE
  5
ABF
  8
2-7
 10
4.2338786403867417
 20
14.172511831181669
 30
0.0
 11
7.6269041997843487
 21
17.56553739057928
 31
0.0
  0
LINE
  5
AC1
  8
2-7
 10
7.6269041997843487
 20
7.4009271503832759
 30
0.0
 11
7.6269041997843479
 21
3.6607695503832751
 31
0.0
  0
LINE
  5
AC2
  8
2-7
 10
4.2338786403867417
 20
7.400927150383275
 30
0.0
 11
4.2338786403867417
 21
3.6607695503832751
 31
0.0
  0
LINE
  5
AC3
  8
2-7
 10
1.2333538804038131
 20
7.400927150383275
 30
0.0
 11
1.2333538804038131
 21
3.6607695503832751
 31
0.0
  0
LINE
  5
AC4
  8
2-7
 10
-2.1596716789937931
 20
7.4009271503832759
 30
0.0
 11
-2.1596716789937922
 21
3.6607695503832751
 31
0.0
  0
LINE
  5
AC5
  8
2-7
 10
-2.3844941396047208
 20
3.660769550383276
 30
0.0
 11
-2.384494139604723
 21
7.4009271503832768
 31
0.0
  0
LINE
  5
B91
  8
DRIVE_TANG
  6
HIDDEN
 10
2.930466660395282
 20
7.4796673103832747
 30
0.0
 11
2.5367658603952821
 21
7.4796673103832747
 31
0.0
  0
LINE
  5
B92
  8
ADAPTER
  6
HIDDEN
 10
3.8143249563952808
 20
7.2946279343832741
 30
0.0
 11
1.6529075643952791
 21
7.2946279343832741
 31
0.0
  0
CIRCLE
  5
B93
  8
ADAPTER
 10
2.7336162603952792
 20
19.065799770570742
 30
0.0
 40
2.3425197600000001
  0
CIRCLE
  5
B94
  8
ADAPTER
 10
2.7336162603952792
 20
19.065799770570742
 30
0.0
 40
0.7874016000000002
  0
CIRCLE
  5
B95
  8
ADAPTER
 10
2.7336162603952792
 20
19.065799770570742
 30
0.0
 40
1.080708695999999
  0
CIRCLE
  5
B96
  8
ADAPTER
 10
2.7336162603952792
 20
19.065799770570742
 30
0.0
 40
1.460629967999999
  0
LINE
  5
B97
  8
DRIVE_TANG
  6
HIDDEN
 10
2.1910965579952801
 20
9.0647067311832732
 30
0.0
 11
3.27613596279528
 21
9.0647067311832732
 31
0.0
  0
LINE
  5
B98
  8
ADAPTER
 10
0.3910965003952818
 20
7.400927150383275
 30
0.0
 11
5.076136020395281
 21
7.400927150383275
 31
0.0
  0
LINE
  5
B99
  8
ADAPTER
 10
1.2729862923952799
 20
10.14108471838327
 30
0.0
 11
4.1942462283952811
 21
10.14108471838327
 31
0.0
  0
LINE
  5
B9A
  8
ADAPTER
 10
0.3910965003952818
 20
7.8009271631832737
 30
0.0
 11
5.076136020395281
 21
7.8009271631832737
 31
0.0
  0
LINE
  5
B9B
  8
ADAPTER
  6
HIDDEN
 10
1.6529075643952791
 20
10.14108471838327
 30
0.0
 11
1.6529075643952791
 21
7.8009271631832737
 31
0.0
  0
LINE
  5
B9C
  8
ADAPTER
 10
1.2729862923952799
 20
10.14108471838327
 30
0.0
 11
1.2729862923952799
 21
7.8009271631832737
 31
0.0
  0
LINE
  5
B9D
  8
ADAPTER
 10
0.3910965003952818
 20
7.8009271631832737
 30
0.0
 11
0.3910965003952818
 21
7.400927150383275
 31
0.0
  0
LINE
  5
B9E
  8
ADAPTER
  6
HIDDEN
 10
1.213931172395287
 20
7.8009271631832737
 30
0.0
 11
1.213931172395287
 21
7.400927150383275
 31
0.0
  0
LINE
  5
B9F
  8
ADAPTER
  6
HIDDEN
 10
1.469836692395287
 20
7.8009271631832737
 30
0.0
 11
1.469836692395289
 21
7.400927150383275
 31
0.0
  0
LINE
  5
BA0
  8
ADAPTER
  6
HIDDEN
 10
1.6529075643952791
 20
7.400927150383275
 30
0.0
 11
1.6529075643952791
 21
7.2946279343832741
 31
0.0
  0
LINE
  5
BA1
  8
ADAPTER
  6
HIDDEN
 10
1.6536249259805951
 20
9.0073344500205206
 30
0.0
 11
1.2729862923952799
 21
9.0073344500205206
 31
0.0
  0
LINE
  5
BA2
  8
DRIVE_TANG
  6
HIDDEN
 10
2.1910965579952801
 20
7.8965964575832723
 30
0.0
 11
2.5367658603952821
 21
7.8965964575832723
 31
0.0
  0
LINE
  5
BA3
  8
DRIVE_TANG
  6
HIDDEN
 10
2.1910965579952801
 20
9.0647067311832732
 30
0.0
 11
2.1910965579952801
 21
7.8965964575832723
 31
0.0
  0
LINE
  5
BA4
  8
ADAPTER
  6
HIDDEN
 10
1.946214660395281
 20
7.8009271631832737
 30
0.0
 11
1.946214660395281
 21
7.2946279343832741
 31
0.0
  0
LINE
  5
BA5
  8
DRIVE_TANG
  6
HIDDEN
 10
2.5367658603952821
 20
7.4796673103832747
 30
0.0
 11
2.5367658603952821
 21
7.8965964575832723
 31
0.0
  0
CIRCLE
  5
BA6
  8
ADAPTER
 10
1.341883932395278
 20
17.674067442570738
 30
0.0
 40
0.12795276
  0
LINE
  5
BA7
  8
ADAPTER
 10
1.273516982873208
 20
19.02642969057074
 30
0.0
 11
1.653624925980592
 21
19.02642969057074
 31
0.0
  0
LINE
  5
BA8
  8
ADAPTER
 10
1.273516982873208
 20
19.105169850570729
 30
0.0
 11
1.653624925980592
 21
19.105169850570729
 31
0.0
  0
CIRCLE
  5
BA9
  8
ADAPTER
 10
1.341883932395278
 20
20.457532098570741
 30
0.0
 40
0.12795276
  0
LINE
  5
BAA
  8
ADAPTER
  6
HIDDEN
 10
3.8143249563952808
 20
10.14108471838327
 30
0.0
 11
3.8143249563952808
 21
7.8009271631832737
 31
0.0
  0
LINE
  5
BAB
  8
ADAPTER
  6
HIDDEN
 10
3.648576919595282
 20
10.042659518383269
 30
0.0
 11
3.648576919595282
 21
8.7139193183832742
 31
0.0
  0
LINE
  5
BAC
  8
ADAPTER
 10
4.6328289195952816
 20
10.042659518383269
 30
0.0
 11
4.6328289195952816
 21
8.7139193183832742
 31
0.0
  0
LINE
  5
BAD
  8
ADAPTER
 10
4.6328289195952816
 20
8.7139193183832742
 30
0.0
 11
3.648576919595282
 21
8.7139193183832742
 31
0.0
  0
LINE
  5
BAE
  8
DRIVE_TANG
  6
HIDDEN
 10
2.930466660395282
 20
7.8965964575832723
 30
0.0
 11
3.27613596279528
 21
7.8965964575832723
 31
0.0
  0
LINE
  5
BAF
  8
DRIVE_TANG
  6
HIDDEN
 10
2.930466660395282
 20
7.8965964575832723
 30
0.0
 11
2.930466660395282
 21
7.4796673103832747
 31
0.0
  0
LINE
  5
BB0
  8
DRIVE_TANG
  6
HIDDEN
 10
3.27613596279528
 20
9.0647067311832732
 30
0.0
 11
3.27613596279528
 21
7.8965964575832723
 31
0.0
  0
LINE
  5
BB1
  8
ADAPTER
  6
HIDDEN
 10
3.5210178603952809
 20
7.8009271631832737
 30
0.0
 11
3.5210178603952809
 21
7.2946279343832741
 31
0.0
  0
LINE
  5
BB2
  8
ADAPTER
  6
HIDDEN
 10
3.8143249563952808
 20
9.0073344500205206
 30
0.0
 11
4.632828919595279
 21
9.0073344500205206
 31
0.0
  0
POLYLINE
  5
BB3
  8
ADAPTER
 66
     1
 10
0.0
 20
0.0
 30
0.0
 70
     1
  0
VERTEX
  5
E5D
  8
ADAPTER
 10
4.2039981427153101
 20
9.6145098826352431
 30
0.0
  0
VERTEX
  5
E5E
  8
ADAPTER
 10
4.0676161940913369
 20
9.3782894183832752
 30
0.0
  0
VERTEX
  5
E5F
  8
ADAPTER
 10
4.2039981427153066
 20
9.1420689541313074
 30
0.0
  0
VERTEX
  5
E60
  8
ADAPTER
 10
4.4767620399632522
 20
9.1420689541313074
 30
0.0
  0
VERTEX
  5
E61
  8
ADAPTER
 10
4.6131439885872263
 20
9.3782894183832752
 30
0.0
  0
VERTEX
  5
E62
  8
ADAPTER
 10
4.4767620399632522
 20
9.6145098826352431
 30
0.0
  0
SEQEND
  5
E63
  8
ADAPTER
  0
CIRCLE
  5
BB4
  8
ADAPTER
 10
4.3403800913392789
 20
9.3782894183832752
 30
0.0
 40
0.219347573948256
  0
LINE
  5
BB5
  8
ADAPTER
 10
4.1942462283952819
 20
8.7139193183832742
 30
0.0
 11
4.1942462283952819
 21
7.8009271631832737
 31
0.0
  0
LINE
  5
BB6
  8
ADAPTER
  6
HIDDEN
 10
3.9973958283952729
 20
7.8009271631832737
 30
0.0
 11
3.9973958283952729
 21
7.400927150383275
 31
0.0
  0
LINE
  5
BB7
  8
ADAPTER
  6
HIDDEN
 10
3.8143249563952808
 20
7.400927150383275
 30
0.0
 11
3.8143249563952808
 21
7.2946279343832741
 31
0.0
  0
LINE
  5
BB8
  8
ADAPTER
  6
HIDDEN
 10
4.2533013483952731
 20
7.8009271631832737
 30
0.0
 11
4.2533013483952731
 21
7.400927150383275
 31
0.0
  0
LINE
  5
BB9
  8
ADAPTER
 10
5.076136020395281
 20
7.8009271631832737
 30
0.0
 11
5.076136020395281
 21
7.400927150383275
 31
0.0
  0
LINE
  5
BBA
  8
ADAPTER
 10
4.632828919595279
 20
19.02642969057074
 30
0.0
 11
4.632828919595279
 21
18.26855565057074
 31
0.0
  0
LINE
  5
BBB
  8
ADAPTER
 10
4.0184010243043566
 20
18.01540207675151
 30
0.0
 11
3.290039962395245
 21
17.71530631732028
 31
0.0
  0
LINE
  5
BBC
  8
ADAPTER
 10
3.648576919595282
 20
10.042659518383269
 30
0.0
 11
4.6328289195952816
 21
10.042659518383269
 31
0.0
  0
LINE
  5
BBD
  8
ADAPTER
 10
4.1942462283952811
 20
10.14108471838327
 30
0.0
 11
4.1942462283952811
 21
10.042659518383269
 31
0.0
  0
CIRCLE
  5
BBE
  8
ADAPTER
  6
HIDDEN
 10
4.4383407243952817
 20
18.081576642386189
 30
0.0
 40
0.12795276
  0
ARC
  5
BBF
  8
ADAPTER
 10
4.3403800913392843
 20
18.203237852882982
 30
0.0
 40
0.2757443010988207
 50
240.35690541003851
 51
299.6430945899599
  0
LINE
  5
BC0
  8
ADAPTER
 10
4.1358071684033222
 20
17.92749355178416
 30
0.0
 11
4.5449530142752348
 21
17.92749355178416
 31
0.0
  0
LINE
  5
BC1
  8
ADAPTER
 10
4.0479311540913328
 20
18.20950053057074
 30
0.0
 11
4.6328290285872207
 21
18.20950053057074
 31
0.0
  0
LINE
  5
BC2
  8
ADAPTER
 10
4.632828919595279
 20
18.26855565057074
 30
0.0
 11
4.0184010243043566
 21
18.26855565057074
 31
0.0
  0
CIRCLE
  5
BC3
  8
ADAPTER
 10
4.1253485883952798
 20
17.674067442570738
 30
0.0
 40
0.12795276
  0
LINE
  5
BC4
  8
ADAPTER
 10
4.0184010243043566
 20
18.26855565057074
 30
0.0
 11
4.0184010243043566
 21
18.01540207675151
 31
0.0
  0
LINE
  5
BC5
  8
ADAPTER
 10
4.0479311540913328
 20
18.20950053057074
 30
0.0
 11
4.0479311540913328
 21
18.26855565057074
 31
0.0
  0
LINE
  5
BC6
  8
ADAPTER
 10
4.0676161940913333
 20
18.20950053057074
 30
0.0
 11
4.0676161940913333
 21
17.9635820920968
 31
0.0
  0
LINE
  5
BC7
  8
ADAPTER
 10
4.2039981427153048
 20
18.20950053057074
 30
0.0
 11
4.2039981427153048
 21
17.9635820920968
 31
0.0
  0
ARC
  5
BC8
  8
ADAPTER
 10
4.1358071684033222
 20
18.009962829676098
 30
0.0
 40
0.0824692778919425
 50
214.22194995231979
 51
325.77805004767743
  0
ARC
  5
BC9
  8
ADAPTER
 10
4.5449530142752348
 20
18.009962829676098
 30
0.0
 40
0.0824692778919425
 50
214.22194995232249
 51
325.7780500476801
  0
LINE
  5
BCA
  8
ADAPTER
 10
4.4767620399632522
 20
18.20950053057074
 30
0.0
 11
4.4767620399632522
 21
17.9635820920968
 31
0.0
  0
LINE
  5
BCB
  8
ADAPTER
 10
4.613143988587221
 20
18.20950053057074
 30
0.0
 11
4.613143988587221
 21
17.9635820920968
 31
0.0
  0
LINE
  5
BCC
  8
ADAPTER
 10
4.6328290285872207
 20
18.20950053057074
 30
0.0
 11
4.6328290285872207
 21
18.26855565057074
 31
0.0
  0
LINE
  5
BCD
  8
ADAPTER
 10
4.632828919595279
 20
19.86304389057074
 30
0.0
 11
3.290039962395245
 21
20.416293223821199
 31
0.0
  0
LINE
  5
BCE
  8
ADAPTER
 10
3.8136075948099659
 20
19.02642969057074
 30
0.0
 11
4.632828919595279
 21
19.02642969057074
 31
0.0
  0
LINE
  5
BCF
  8
ADAPTER
 10
3.8136075948099659
 20
19.105169850570729
 30
0.0
 11
4.632828919595279
 21
19.105169850570729
 31
0.0
  0
CIRCLE
  5
BD0
  8
ADAPTER
 10
4.1253485883952798
 20
20.457532098570741
 30
0.0
 40
0.12795276
  0
LINE
  5
BD1
  8
ADAPTER
 10
4.632828919595279
 20
19.86304389057074
 30
0.0
 11
4.632828919595279
 21
19.105169850570729
 31
0.0
  0
CIRCLE
  5
BD3
  8
DRIVE_INPUT
  6
HIDDEN
 10
2.7336162603952801
 20
19.065799770570742
 30
0.0
 40
0.5511811200000001
  0
LINE
  5
BD4
  8
DRIVE_INPUT
  6
HIDDEN
 10
2.9304666603952811
 20
18.550969170213399
 30
0.0
 11
2.9304666603952811
 21
19.58063037092807
 31
0.0
  0
LINE
  5
BD5
  8
DRIVE_INPUT
  6
HIDDEN
 10
2.5367658603952798
 20
18.550969170213399
 30
0.0
 11
2.5367658603952798
 21
19.58063037092807
 31
0.0
  0
LINE
  5
BD7
  8
2-7
 10
0.3702167807388261
 20
2.0816075192595398
 30
0.0
 11
-0.4935356199482514
 21
2.0816075192595411
 31
0.0
  0
LINE
  5
BD8
  8
2-7
 10
-0.5042217845421768
 20
2.460966362343906
 30
0.0
 11
0.3809029453327515
 21
2.460966362343906
 31
0.0
  0
LINE
  5
BD9
  8
2-7
 10
1.904876076395287
 20
2.4796671503832748
 30
0.0
 11
-2.0281949156047121
 21
2.4796671503832761
 31
0.0
  0
LINE
  5
BDA
  8
2-7
 10
1.9048760763952819
 20
0.4717930703832753
 30
0.0
 11
0.4914902043952831
 21
0.4717930703832753
 31
0.0
  0
LINE
  5
BDB
  8
2-7
 10
1.9048760763952819
 20
2.4796671503832748
 30
0.0
 11
1.9048760763952819
 21
0.4717930703832753
 31
0.0
  0
LINE
  5
BDC
  8
2-7
  6
HIDDEN
 10
1.904876076395285
 20
3.6607695503832751
 30
0.0
 11
1.904876076395287
 21
2.4796671503832748
 31
0.0
  0
LINE
  5
BDD
  8
2-7
 10
0.4914902043952817
 20
2.4796671503832761
 30
0.0
 11
0.4914902043952831
 21
0.4717930703832753
 31
0.0
  0
LINE
  5
BDE
  8
2-7
 10
0.3702167807388261
 20
2.0816075192595398
 30
0.0
 11
0.3702167807388261
 21
2.460966362343906
 31
0.0
  0
LINE
  5
BDF
  8
2-7
 10
0.3809029453327515
 20
2.460966362343906
 30
0.0
 11
0.3809029453327515
 21
2.4796671503832761
 31
0.0
  0
ARC
  5
BE0
  8
2-7
 10
-0.0616594196047126
 20
2.109436072889554
 30
0.0
 40
0.3484134914477874
 50
184.5812200852769
 51
355.41877991472302
  0
LINE
  5
BE1
  8
2-7
 10
0.1542786805670567
 20
2.0816075192595411
 30
0.0
 11
0.1542786805670567
 21
2.460966362343906
 31
0.0
  0
LINE
  5
BE2
  8
2-7
 10
-0.277597519776482
 20
2.0816075192595411
 30
0.0
 11
-0.277597519776482
 21
2.460966362343906
 31
0.0
  0
LINE
  5
BE3
  8
2-7
 10
-0.4935356199482514
 20
2.0816075192595411
 30
0.0
 11
-0.4935356199482514
 21
2.460966362343906
 31
0.0
  0
LINE
  5
BE4
  8
2-7
 10
-0.5042217845421768
 20
2.460966362343906
 30
0.0
 11
-0.5042217845421768
 21
2.4796671503832761
 31
0.0
  0
LINE
  5
BE5
  8
2-7
 10
-2.0281949156047112
 20
3.660769550383276
 30
0.0
 11
-2.0281949156047121
 21
2.4796671503832761
 31
0.0
  0
LINE
  5
BE6
  8
2-7
 10
4.700151756395277
 20
2.4796671503832748
 30
0.0
 11
0.7670807643952785
 21
2.4796671503832761
 31
0.0
  0
LINE
  5
BE7
  8
2-7
 10
0.7670807643952795
 20
3.660769550383276
 30
0.0
 11
0.7670807643952785
 21
2.4796671503832761
 31
0.0
  0
LINE
  5
BE8
  8
2-7
 10
2.291053895457813
 20
2.460966362343906
 30
0.0
 11
3.1761786253327422
 21
2.460966362343906
 31
0.0
  0
LINE
  5
BE9
  8
2-7
 10
3.165492460738816
 20
2.0816075192595398
 30
0.0
 11
2.3017400600517388
 21
2.0816075192595411
 31
0.0
  0
LINE
  5
BEA
  8
2-7
 10
2.3017400600517388
 20
2.0816075192595411
 30
0.0
 11
2.3017400600517388
 21
2.460966362343906
 31
0.0
  0
LINE
  5
BEB
  8
2-7
 10
2.291053895457813
 20
2.460966362343906
 30
0.0
 11
2.291053895457813
 21
2.4796671503832761
 31
0.0
  0
ARC
  5
BEC
  8
2-7
 10
2.7336162603952769
 20
2.109436072889554
 30
0.0
 40
0.3484134914477874
 50
184.5812200852769
 51
355.41877991472302
  0
LINE
  5
BED
  8
2-7
 10
2.5176781602235079
 20
2.0816075192595411
 30
0.0
 11
2.5176781602235079
 21
2.460966362343906
 31
0.0
  0
LINE
  5
BEE
  8
2-7
 10
2.9495543605670469
 20
2.0816075192595411
 30
0.0
 11
2.9495543605670469
 21
2.460966362343906
 31
0.0
  0
LINE
  5
BEF
  8
2-7
 10
3.165492460738816
 20
2.0816075192595398
 30
0.0
 11
3.165492460738816
 21
2.460966362343906
 31
0.0
  0
LINE
  5
BF0
  8
2-7
 10
3.1761786253327422
 20
2.460966362343906
 30
0.0
 11
3.1761786253327422
 21
2.4796671503832761
 31
0.0
  0
LINE
  5
BF1
  8
2-7
 10
4.7001517563952762
 20
3.660769550383276
 30
0.0
 11
4.700151756395277
 21
2.4796671503832761
 31
0.0
  0
LINE
  5
BF3
  8
2-7
 10
3.5623564443952729
 20
2.4796671503832748
 30
0.0
 11
3.5623564443952729
 21
0.4717930703832753
 31
0.0
  0
LINE
  5
BF4
  8
2-7
 10
3.5623564443952729
 20
0.4717930703832753
 30
0.0
 11
4.9757423163952721
 21
0.4717930703832753
 31
0.0
  0
LINE
  5
BF5
  8
2-7
 10
4.975742316395273
 20
2.4796671503832761
 30
0.0
 11
4.9757423163952721
 21
0.4717930703832753
 31
0.0
  0
LINE
  5
C97
  8
2-7
  6
HIDDEN
 10
1.243458732395281
 20
6.9284861903832748
 30
0.0
 11
1.34188393239528
 21
6.8560960218280966
 31
0.0
  0
LINE
  5
C98
  8
2-7
  6
HIDDEN
 10
1.4599941723952821
 20
6.967856270383276
 30
0.0
 11
1.2237736923952789
 21
6.967856270383276
 31
0.0
  0
LINE
  5
C99
  8
2-7
  6
HIDDEN
 10
1.2434587323952799
 20
7.400927150383275
 30
0.0
 11
1.243458732395281
 21
6.9284861903832748
 31
0.0
  0
LINE
  5
C9A
  8
2-7
  6
HIDDEN
 10
1.22377369239528
 20
7.400927150383275
 30
0.0
 11
1.2237736923952789
 21
6.967856270383276
 31
0.0
  0
LINE
  5
C9B
  8
2-7
  6
HIDDEN
 10
1.4599941723952801
 20
7.400927150383275
 30
0.0
 11
1.4599941723952821
 21
6.967856270383276
 31
0.0
  0
LINE
  5
C9C
  8
2-7
  6
HIDDEN
 10
1.4403091323952799
 20
7.400927150383275
 30
0.0
 11
1.4403091323952799
 21
6.9284861903832748
 31
0.0
  0
LINE
  5
C9D
  8
2-7
  6
HIDDEN
 10
1.4403091323952799
 20
6.9284861903832748
 30
0.0
 11
1.34188393239528
 21
6.8560960218280966
 31
0.0
  0
LINE
  5
C9E
  8
2-7
  6
HIDDEN
 10
4.0269233883952671
 20
6.9284861903832748
 30
0.0
 11
4.1253485883952674
 21
6.8560960218280966
 31
0.0
  0
LINE
  5
C9F
  8
2-7
  6
HIDDEN
 10
4.2434588283952683
 20
6.967856270383276
 30
0.0
 11
4.0072383483952656
 21
6.967856270383276
 31
0.0
  0
LINE
  5
CA0
  8
2-7
  6
HIDDEN
 10
4.0269233883952671
 20
7.400927150383275
 30
0.0
 11
4.0269233883952671
 21
6.9284861903832748
 31
0.0
  0
LINE
  5
CA1
  8
2-7
  6
HIDDEN
 10
4.0072383483952674
 20
7.400927150383275
 30
0.0
 11
4.0072383483952656
 21
6.967856270383276
 31
0.0
  0
LINE
  5
CA2
  8
2-7
  6
HIDDEN
 10
4.2434588283952666
 20
7.400927150383275
 30
0.0
 11
4.2434588283952683
 21
6.967856270383276
 31
0.0
  0
LINE
  5
CA3
  8
2-7
  6
HIDDEN
 10
4.223773788395266
 20
7.400927150383275
 30
0.0
 11
4.2237737883952651
 21
6.9284861903832748
 31
0.0
  0
LINE
  5
CA4
  8
2-7
  6
HIDDEN
 10
4.2237737883952651
 20
6.9284861903832748
 30
0.0
 11
4.1253485883952674
 21
6.8560960218280966
 31
0.0
  0
TEXT
  5
DB4
  8
0
 10
-0.9932800609526992
 20
11.50730877970506
 30
0.0
 40
0.125
  1
THE ADAPTER SHOWN IN THIS DRAWING IS ONLY TO ILLUSTRATE A TYPICAL ADAPTER
  7
ARIAL
  0
ENDSEC
  0
EOF
